home English Chords Smells Like Teen Spirit Bass Tabs – Nirvana

Smells Like Teen Spirit Bass Tabs – Nirvana

Tabs & Chords Info: Smells Like Teen Spirit Bass Tabs is from a song name Smells Like Teen Spirit. This song is sung by Nirvana & the lyrics is written by Nirvana.

Difficulty: Intermediate
Tuning: E A D G

Smells Like Teen Spirit Bass Tabs

Nirvana
Smells Like Teen Spirit
Author: Ricardo Fonseca
Re-edit by-Keifer Moses
 
[Riff1]
G|----------------------------|
D|----------------------------|
A|-------1-1---------4-4-3----|
E|-1-1-1-----1-4-4-4----------|(4x)
 
 
[Riff2]
G|------------------------------------|
D|------------------------------------|
A|--------1-1-1-1----------4-4-4-3----| (10x)
E|1-1-1-1---------4-4-4-4-------------|
 
[Riff1]
G|----------------------------|
D|----------------------------|
A|-------1-1---------4-4-3----|
E|-1-1-1-----1-4-4-4----------| (6x)
 
[Riff3]
G|------------------------------|
D|------------------------------|
A|------------------------------|
E|1-1-0-0-2--1-1-0-0--6-4-------| (2x)
 
[Riff2]
G|------------------------------------|
D|------------------------------------|
A|--------1-1-1-1----------4-4-4-3----|
E|1-1-1-1---------4-4-4-4-------------| (10x)
 
[Riff1]
G|----------------------------|
D|----------------------------|
A|-------1-1---------4-4-3----|
E|-1-1-1------1-4-4-4---------| (6x)
 
[Riff3]
G|------------------------------|
D|------------------------------|
A|------------------------------|
E|1-1-0-0-2--1-1-0-0--6-4-------| (2x)
 
[Riff2]
G|------------------------------------|
D|------------------------------------|
A|--------1-1-1-1----------4-4-4-3----|
E|1-1-1-1---------4-4-4-4-------------| (10x)
 
[Riff1]
G|----------------------------|
D|----------------------------|
A|-------1-1---------4-4-3----|
E|-1-1-1------1-4-4-4---------| (8x)
 
[Riff2]
G|------------------------------------|
D|------------------------------------|
A|--------1-1-1-1----------4-4-4-3----|
E|1-1-1-1---------4-4-4-4-------------| (10x)
 
[Riff1]
G|----------------------------|
D|----------------------------|
A|-------1-1---------4-4-3----|
E|-1-1-1------1-4-4-4---------| (10x)

Music Video

Grandola Vila Morena Chords

Leave a Reply

Your email address will not be published.